Resultat 1 till 11 av 11

Ämne: Då som nu för alltid - Ackord

Hybridvisning

Föregående inlägg Föregående inlägg   Nästa inlägg Nästa inlägg
  1. #1
    Nybörjare R.Ahlms avatar
    Reg.datum
    Mar 2005
    Ort
    Ystad
    Inlägg
    24

    Standard Då som nu för alltid - Ackord

    Hej allihopa!
    Jag skulle bara säga att alla ackord till sista skivan är upplagda nu.

    Det har varit en stor ära att ha haft detta nöje och ansvar under så många år.
    Jag började lyssna på Kent 95-96 och har alltid känt den där kopplingen mellan ord, ackord och tongångar som så många artister saknar.

    Tack till alla Kents fans och spelsugna kentaurer som haft nytta av arbetet som jag, och andra före mig, lagt ner.

    Jag vill också önska medlemmarna i bandet lycka till i framtiden.
    Ni ska ha ett stort tack för det ni gjort för mig och många andra.


    Tack för mig.
    Robin Ahlm
    Ackordansvarig

  2. #2
    Nybörjare
    Reg.datum
    May 2007
    Inlägg
    40

    Standard

    Saknar ackord till Skyll inte ifrån dig.
    "Det hjärtat är fullt av talar munnen."

  3. #3
    Nybörjare R.Ahlms avatar
    Reg.datum
    Mar 2005
    Ort
    Ystad
    Inlägg
    24
    Robin Ahlm
    Ackordansvarig

  4. #4
    Nybörjare
    Reg.datum
    May 2007
    Inlägg
    40

    Standard

    Tack så mycket
    "Det hjärtat är fullt av talar munnen."

  5. #5
    Erfaren medlem Fast Forwards avatar
    Reg.datum
    Feb 2004
    Ort
    Stockholm
    Inlägg
    4 306

    Standard

    Någon som tagit ut den akustiska slingan i Falska profeter? Kan vara det bästa introt på skivan!
    Du log genom fräknarna
    med tårar i ögonen
    Allt fanns i ögonen
    Allt finns i ögonen

  6. #6
    Erfaren medlem crappers avatar
    Reg.datum
    Jun 2004
    Ort
    Skövde., , .
    Inlägg
    4 058

    Standard

    Bm
    e-----2-------2--
    B--------3--5---5--
    G------------------
    D------------------
    A-2---------------
    E----------------

    F#m
    e-----------------
    B--------2-------2--
    G-----------2--4---4----
    D-----------------------
    A----------------------
    E--2------------------

    G:
    e---------------------
    B------3------2--3--2-
    G---------4-----------
    D--------------------
    A--------------------
    E--3----------------

    D
    e----5---------5----
    B-------7---8---8----
    G-----------------
    D-----------------
    A-5----------------
    E-----------------

    A/c#
    e-----------------
    B------5---------5--
    G----------6--7----7-
    D----------------------
    A--------------------
    E-5--------------------

Behörigheter för att posta

  • Du får inte posta nya ämnen
  • Du får inte posta svar
  • Du får inte posta bifogade filer
  • Du får inte redigera dina inlägg
  •