Resultat 1 till 11 av 11

Ämne: Då som nu för alltid - Ackord

  1. #1
    Nybörjare R.Ahlms avatar
    Reg.datum
    Mar 2005
    Ort
    Ystad
    Inlägg
    24

    Standard Då som nu för alltid - Ackord

    Hej allihopa!
    Jag skulle bara säga att alla ackord till sista skivan är upplagda nu.

    Det har varit en stor ära att ha haft detta nöje och ansvar under så många år.
    Jag började lyssna på Kent 95-96 och har alltid känt den där kopplingen mellan ord, ackord och tongångar som så många artister saknar.

    Tack till alla Kents fans och spelsugna kentaurer som haft nytta av arbetet som jag, och andra före mig, lagt ner.

    Jag vill också önska medlemmarna i bandet lycka till i framtiden.
    Ni ska ha ett stort tack för det ni gjort för mig och många andra.


    Tack för mig.
    Robin Ahlm
    Ackordansvarig

  2. #2
    Nybörjare
    Reg.datum
    May 2007
    Inlägg
    40

    Standard

    Saknar ackord till Skyll inte ifrån dig.
    "Det hjärtat är fullt av talar munnen."

  3. #3
    Nybörjare R.Ahlms avatar
    Reg.datum
    Mar 2005
    Ort
    Ystad
    Inlägg
    24
    Robin Ahlm
    Ackordansvarig

  4. #4
    Nybörjare
    Reg.datum
    May 2007
    Inlägg
    40

    Standard

    Tack så mycket
    "Det hjärtat är fullt av talar munnen."

  5. #5
    Erfaren medlem Fast Forwards avatar
    Reg.datum
    Feb 2004
    Ort
    Stockholm
    Inlägg
    4 304

    Standard

    Någon som tagit ut den akustiska slingan i Falska profeter? Kan vara det bästa introt på skivan!
    Du log genom fräknarna
    med tårar i ögonen
    Allt fanns i ögonen
    Allt finns i ögonen

  6. #6
    Erfaren medlem crappers avatar
    Reg.datum
    Jun 2004
    Ort
    Skövde., , .
    Inlägg
    4 058

    Standard

    Bm
    e-----2-------2--
    B--------3--5---5--
    G------------------
    D------------------
    A-2---------------
    E----------------

    F#m
    e-----------------
    B--------2-------2--
    G-----------2--4---4----
    D-----------------------
    A----------------------
    E--2------------------

    G:
    e---------------------
    B------3------2--3--2-
    G---------4-----------
    D--------------------
    A--------------------
    E--3----------------

    D
    e----5---------5----
    B-------7---8---8----
    G-----------------
    D-----------------
    A-5----------------
    E-----------------

    A/c#
    e-----------------
    B------5---------5--
    G----------6--7----7-
    D----------------------
    A--------------------
    E-5--------------------

  7. #7
    Erfaren medlem Fast Forwards avatar
    Reg.datum
    Feb 2004
    Ort
    Stockholm
    Inlägg
    4 304

    Standard

    Grymt! Tack!!
    Du log genom fräknarna
    med tårar i ögonen
    Allt fanns i ögonen
    Allt finns i ögonen

  8. #8

    Standard

    Citat Ursprungligen postat av crapper Visa inlägg
    Bm
    e-----2-------2--
    B--------3--5---5--
    G------------------
    D------------------
    A-2---------------
    E----------------

    F#m
    e-----------------
    B--------2-------2--
    G-----------2--4---4----
    D-----------------------
    A----------------------
    E--2------------------

    G:
    e---------------------
    B------3------2--3--2-
    G---------4-----------
    D--------------------
    A--------------------
    E--3----------------

    D
    e----5---------5----
    B-------7---8---8----
    G-----------------
    D-----------------
    A-5----------------
    E-----------------

    A/c#
    e-----------------
    B------5---------5--
    G----------6--7----7-
    D----------------------
    A--------------------
    E-5--------------------
    Du är en ängel tack!
    Joakim marketing bättre marknadsföring blir det inte

  9. #9

    Standard

    Någon som har tabulatur till introt på "Den sista sången" ?

  10. #10
    Smygare
    Reg.datum
    Mar 2005
    Ort
    Stockholm
    Inlägg
    4

    Standard

    Citat Ursprungligen postat av fortyfiveknots Visa inlägg
    Någon som har tabulatur till introt på "Den sista sången" ?
    Här är ett förslag till intron till "Den sista sången" iaf. Som alltid med gitarr-tabbar kan det förekomma skillnader på vart (på halsen/vilka strängar) jag spelar grejorna jamförd med vart Sami, Jocke och Max gör ...*sigh*... gjorde det.

    Delay-effekterna gör ju att det låter som det är flera spelade notar än det faktisk är.

    e---------------------------------
    B---------------------------------
    G-----7-------7-------7-------7---
    D---7---------------7-------------
    A-5---------5-----5---------5-----
    E--------------------------------- x 4

    Denna forsätter så:

    e-----------------------------------------------------------------
    B---------------------7-------7-------7-------7-------8-7---------
    G-----7-------7-----7---------------6---------------7-------9-----
    D---7-------------9---------9-----7---------7-----9---------------
    A-5---------5-----------------------------------------------------
    E----------------------------------------------------------------- x 2

    Samtidigt som den här hopplöst vackra slingan börjar - jag kommar nog alltid få tårar i ögonen av denna:

    e------------------------------------------------------------------
    B------------------------------------------------------------------
    G---14--14--14--14--12--11--9-------14--14--14--14--12--11--12-----
    D-12-(12)(12)(12)-9--(9)-(9)---12-11-(11)(11)(11)-9--(9)-(9)-------
    A------------------------------------------------------------------
    E------------------------------------------------------------------ x 2


    Det här är iaf en utgångspunkt för introt i sången... versen är igen rätt lik när man först kommit igång med de ackorderna som används där

  11. #11

    Standard

    Tack! sedan du skrev ovan svar så har slingorna spelats flitigt.

Behörigheter för att posta

  • Du får inte posta nya ämnen
  • Du får inte posta svar
  • Du får inte posta bifogade filer
  • Du får inte redigera dina inlägg
  •