Sidan 3 av 12 FörstaFörsta 123456789101112 SistaSista
Resultat 31 till 45 av 180

Ämne: Mina kenttabs

  1. #31
    Erfaren medlem crappers avatar
    Reg.datum
    Jun 2004
    Ort
    Skövde., , .
    Inlägg
    4 058

    Standard

    hepp, funkar fortfarande inte...men det kommer väl att göra det med tiden..

    vem var det förästen som skulle göra en powertab på palace&main? skulle vara rätt gött med det....

  2. #32
    Medlem Pierrens avatar
    Reg.datum
    May 2007
    Ort
    Björnlunda
    Inlägg
    330

    Standard

    Varför inte köra med guitar pro? Bättre på alla sätt och vis enligt mig
    du, du, du gör mig hel

    Bilddagboken

  3. #33
    Erfaren medlem crappers avatar
    Reg.datum
    Jun 2004
    Ort
    Skövde., , .
    Inlägg
    4 058

    Standard

    eftersom alla har inte guitar pro bara för att man får pröjsa 700 spänn gämfört med powertab om man inte får det på ett "annat" sätt....

  4. #34
    Medlem Pierrens avatar
    Reg.datum
    May 2007
    Ort
    Björnlunda
    Inlägg
    330

    Standard

    Kan stämma:S Har fått det utav en kompis.. Men hade en gratis trail förut som räcker 30 dagar och om man "fixar" med datumet på datorn går den att ha längre
    du, du, du gör mig hel

    Bilddagboken

  5. #35
    Erfaren medlem crappers avatar
    Reg.datum
    Jun 2004
    Ort
    Skövde., , .
    Inlägg
    4 058

    Standard

    haha,bäst vi håller oss i skinnet annars kommer moderatorerna och nyper oss -_-*....

  6. #36
    Medlem Pierrens avatar
    Reg.datum
    May 2007
    Ort
    Björnlunda
    Inlägg
    330

    Standard

    Jo, det har du rätt i. Men jag får väl ta och skaffa mig powertab då och ska försöka att inte bli tokig på den
    du, du, du gör mig hel

    Bilddagboken

  7. #37
    Erfaren medlem Asmogriffs avatar
    Reg.datum
    Jun 2005
    Ort
    Göteborg, , Sweden.
    Inlägg
    2 132

    Standard

    Guitarpro är äckligt. Layouten och allting är vidrigt IMO. Enda fördelen med GP är väl trummorna.

    Jag har en typ halvfärdig PT av Palace & Main, men jag har för mig den var rätt dålig. Massa gitarrer som var skitsvåra att höra. :P

    Såg förresten att du skrivit i forumet, om det är du som är kevlarmartin?

  8. #38
    Erfaren medlem crappers avatar
    Reg.datum
    Jun 2004
    Ort
    Skövde., , .
    Inlägg
    4 058

    Standard

    jupp det är jag det, nä testa kör klar PTn din är midvh är ju grymt bra:P
    skämt åsido men det vore kul om det fanns en powertab ellr GP på en sån hitlåt...

  9. #39
    Erfaren medlem crappers avatar
    Reg.datum
    Jun 2004
    Ort
    Skövde., , .
    Inlägg
    4 058

    Standard

    jo är du säker på att du "lagt ut" tabben på rätt sätt för att det är bara den jag inte kan ladda ner....och sen kommer in den låten fram när man söker på 747 eller kent....

  10. #40
    Erfaren medlem Asmogriffs avatar
    Reg.datum
    Jun 2005
    Ort
    Göteborg, , Sweden.
    Inlägg
    2 132

    Standard

    Hmm, man kanske behöver vara nån speciell medlem för att kunna ladda ner WIP-tabs. Eftersom den inte är färdig är den uppladdad som Work In Progress bara.

  11. #41
    Erfaren medlem crappers avatar
    Reg.datum
    Jun 2004
    Ort
    Skövde., , .
    Inlägg
    4 058

    Standard

    det är lugnt en kille på forumet gav den till mig....bra tab för övrigt! ; )

  12. #42
    Erfaren medlem crappers avatar
    Reg.datum
    Jun 2004
    Ort
    Skövde., , .
    Inlägg
    4 058

    Standard

    Visslaren outro


    Gitarr 1
    e-----------------------------------------------------
    B----------------------------------------------------
    G-10-10-10-10-10-5-5-5-5-7-7-7-7-7-7-7-7----
    D----------------------------------------------------
    A--8--8--8--8---8--3-3-3-3-5-5-5-5-5-5-5-5-----
    E-----------------------------------------------------rundgång hela tiden

    Gitarr2
    E--------------------------------------------------------------------
    B-10-11-10-11-10-11-10-13-10-11-------------------------------
    G--------------------------------------10-10-10-10-10-5-5-5---
    D-------------------------------------------------------------------
    A---------------------------------------------------------------------
    E-------------------------------------------------------------------spelas rundgång hela tiden
    Senast redigerat av crapper den 2010-08-24 klockan 23:01.

  13. #43
    Erfaren medlem crappers avatar
    Reg.datum
    Jun 2004
    Ort
    Skövde., , .
    Inlägg
    4 058

    Standard

    Bianca

    Gitarr 1
    e-----------------------------------------------------------------------------------------------------------
    B-----------------------------------------------------------------------------------------------------------
    G-----------------------------------------------------------------------------------------------------------
    D-----------------------------------------------------------------------------------------------------------
    A-----------------------------------------------------------------------------------------------------------
    E-3-3-3-3-3-3-3-3-3-3-3-3-3-3-3-5-5-5-5-5-5-5-5-6-6-6-6-6-6-6-6-5-5-5-5-5-5-5-5-3-3-3-3-

    e-----------------------------------------------------------------------------------------------------------
    B-----------------------------------------------------------------------------------------------------------
    G--3-3--3-3-3--5-5--5-5-5--3-3--3-3-3--2-2--3-5-3-3--3---3-5-3-3--3---3-5-3-3--3------------
    D-----------------------------------------------------------------------------------------------------------
    A--1-1--1-1-1--3-3--3-3-3--1-1--1-1-1--0-0--1-3-1-1--1---1-3-1-1--1---1-5-1-1--1------------
    E-----------------------------------------------------------------------------------------------------------
    Forts.
    e----------------------
    B---------------------
    G--3-5-3-3--3------
    D---------------------
    A--1-3-1-1--1------
    E---------------------allt x2

    Gitarr2 står på kent.nu>accord



    Vers
    Gitarr 1
    e-----------------------------------------------------------------------------------------------------------
    B-----------------------------------------------------------------------------------------------------------
    G-----------------------------------------------------------------------------------------------------------
    D-----------------------------------------------------------------------------------------------------------
    A-----------------------------------------------------------------------------------------------------------
    E-3-3-3-3-3-3-3-3-3-3-3-3-3-3-3-5-5-5-5-5-5-5-5-6-6-6-6-6-6-6-6-5-5-5-5-5-5-5-5-3-3-3-3-

    e-----------------------------------------------------------------------------------------------------------
    B-----------------------------------------------------------------------------------------------------------
    G--3-3--3-3-3--5-5--5-5-5--3-3--3-3-3--2-2--3-5-3-3--3---3-5-3-3--3---3-5-3-3--3------------
    D-----------------------------------------------------------------------------------------------------------
    A--1-1--1-1-1--3-3--3-3-3--1-1--1-1-1--0-0--1-3-1-1--1---1-3-1-1--1---1-5-1-1--1------------
    E-----------------------------------------------------------------------------------------------------------
    Forts.
    e----------------------
    B---------------------
    G--3-5-3-3--3------
    D---------------------
    A--1-3-1-1--1------
    E---------------------allt x2

    Gitarr2 står på kent.nu>accord
    Refräng
    e------------------------------------------------------------------------------------------------------
    B------------------------------------------------------------------------------------------------------
    G--10----------10----------8---------8----------7---------7----------10---------10---------------
    D-------7--8--------7--8------7--8------7--8------7--8------7--8--------7--8-------7--8-------
    A-----------------------------------------------------------------------------------------------------
    E------------------------------------------------------------------------------------------------------

    e------------------------------------------------------------------------------------------------------
    B------------------------------------------------------------------------------------------------------
    G--10----------10----------8---------8----------7---------7----------10---------7----------------
    D-------7--8--------7--8------7--8------7--8------7--8------7--8-------------------------------
    A-----------------------------------------------------------------------------------------------------
    E------------------------------------------------------------------------------------------------------
    Spelas nog med wha-wha pedal…

    Gitarr2
    e-------------------------------------------------------------------------------------------------------------
    B--------------------------------------------------------------------------------------------------------------
    G-------------------------------------------------------------------------------------------------------------
    D--3-3-3-------------3-3-3--------------0-0-0-------------0-0-0------------1-1-1----------1-1-1--------
    A-----------0-0--1------------0-0--1-----------------0------------------0----------------0--------------0--
    E--------------------------------------------------3-3---------------3-3--------------3-3------------3-3---
    Forts.
    e------------------------------------------
    B-----------------------------------------
    G-3-3-3------------3-3-3--------------
    D---------0-0--1-----------0-0--1-----
    A-----------------------------------------
    E----------------------------------------
    Forts.
    e-------------------------------------------------------------------------------------------------------------
    B--------------------------------------------------------------------------------------------------------------
    G-------------------------------------------------------------------------------------------------------------
    D--3-3-3-------------3-3-3-------------0-0-0-------------0-0-0------------1-1-1----------1-1-1---------
    A-----------0-0--1------------0-0--1-----------------0------------------0----------------0--------------0--
    E--------------------------------------------------3-3---------------3-3--------------3-3------------3-3---
    Forts.
    e----------------------------------------
    B----------------------------------------
    G-3-3-3-3-3-3-3-3-0-0-0-0-0-0-0---
    D----------------------------------------
    A----------------------------------------
    E----------------------------------------


    ------------Vers2--samma--som--första---------


    ----------------Refräng2--samma--som--fösta------


    Solo/mellanspel

    2 verisioner…..verision2 är dock skönare och röjjigare att spela…..

    Verision1
    e-------------------------------------------------------------------------------------------------------------
    B-------------------------------------------------------------------------------------------------------------
    G-3------5-7-5-3-3-5---7-----5-7-5-3-3-5----3------5-7-5-3-3-5----10-----7----5-7-5-3-3-5---3---
    D-------------------------------------------------------------------------------------------------------------
    A-------------------------------------------------------------------------------------------------------------
    E-------------------------------------------------------------------------------------------------------------allt x2

    Verision2
    e-------------------------------------------------------------------------------------------------------------
    B-------------------------------------------------------------------------------------------------------------
    G-3-3-3-3-3-3-3-3-5-7-5-3-3-5-7-7-7-7-7-7-5-7-5-3-3-5-3-3-3-3-3-3-5-7-5-3-3-5--------------
    D-------------------------------------------------------------------------------------------------------------
    A-1-1-1-1-1-1-1-1-3-5-3-1-1-3-5-5-5-5-5-5-3-5-3-1-1-3-1-1-1-1-1-1-3-5-3-1-1-3-------------
    E-------------------------------------------------------------------------------------------------------------
    Forts.
    e-----------------------------------------------------------------
    B----------------------------------------------------------------
    G-10-10-10-10-10-7-7-7-7-7-7-5-7-5-3-3-3-3-3-3-3-3-
    D----------------------------------------------------------------
    A-8--8--8--8--8--8-5-5-5-5-5-5-3-5-3-1-1-1-1-1-1-1-1--
    E-----------------------------------------------------------------allt x2


    ------Refräng------

    Outro
    e-------------------------------------------------------------------------------------------------------------
    B-------------------------------------------------------------------------------------------------------------
    G-------------------------------------------------------------------------------------------------------------
    D-3-3-3------------3-3-3-3-1-1-1-1-0-0-0---1-1-1------------1-1-1------------1-1-1-----------------
    A---------0-0--1-----------------------------------------------0-----------------0----------------0--------
    E----------------------------------------------------------3-3--------------3-3---------------3-3----------
    Forts.
    e----------------------------------------------------------
    B----------------------------------------------------------
    G----------------------------------------------------------
    D-1-1-1-------------3-3-3------------3-3-3------------
    A--------------0-------------0-0--1-----------0-0--1---
    E---------3-3---------------------------------------------

    e-------------------------------------------------------------------------------------------------------------
    B-------------------------------------------------------------------------------------------------------------
    G-------------------------------------------------------------------------------------------------------------
    D-3-3-3------------3-3-3-3-1-1-1-1-0-0-0---1-1-1------------1-1-1------------1-1-1-----------------
    A---------0-0--1-----------------------------------------------0-----------------0----------------0--------
    E----------------------------------------------------------3-3--------------3-3---------------3-3----------

    e----------------------------------------------------------
    B----------------------------------------------------------
    G----------------------------------------------------------
    D-1-1-1---------------3-3-3-3-3-3-1-1-1-1-1-1------
    A--------------0------------------------------------------
    E---------3-3---------------------------------------------allt x2


    Gitarr2 står på kent.nu>ackord

  14. #44
    Erfaren medlem crappers avatar
    Reg.datum
    Jun 2004
    Ort
    Skövde., , .
    Inlägg
    4 058

    Standard

    Palace & main(uppdaterad, den gamla är raderad)

    Intro

    Gitarr1
    e-------------------------------------------------------------------------------------------------------------
    B-------------------------------------------------------------------------------------------------------------
    G-4-4-4-4-4--7-9-11-11--11-9-7--9--7-7-7-7-7-7--9--7-7-7-7-7-7--4-4-4-4-4-4-7-6-2-2-2-2-2-
    D-------------------------------------------------------------------------------------------------------------
    A-------------------------------------------------------------------------------------------------------------
    E-------------------------------------------------------------------------------------------------------------
    Forts.
    e-----------------------------
    B----------------------------
    G-7-6-4-4-4-4-4-4-4-4---
    D----------------------------
    A----------------------------
    E----------------------------

    Gitarr2
    e---------------------------------------------------------------------------------------------------------------
    B--------------------------------------------------------0--0-0-0-0-0------------------------0-0--0-0-0--
    G--------------------------------------------------------4-4--4-4-4-4------------------------4-4--4-4-4---
    D-9-9-9-9-9-9-9-9-7-7-7-7-7-7-7-5-5-5-5-5-5----------------------9-9-12-14-11-7------------------
    A---------------------------------------------------------------------------------------------------------------
    E---------------------------------------------------------------------------------------------------------------

    Vers1

    Gitarr1
    e------------------------------------------------------------------------------------------
    B-----------------------------------------------------------------------------------------
    G-4-4-xxxx-4-4-xxxx-----4-4-xxxx-4-4-xxxx-------7-7-xxxx-7-7-xxxx-------
    D-4-4-xxxx-4-4-xxxx-----4-4-xxxx-4-4-xxxx-------7-7-xxxx-7-7-xxxx-------
    A-2-2-xxxx-2-2-xxxx-----2-2-xxxx-2-2-xxxx-------5-5-xxxx-5-5-xxxx-------
    E-----------------------------------------------------------------------------------------
    Forts.
    e---------------------------------------
    B------------------------ --------------
    G-4-4-xxxx-4-4-xxxx--------------
    D-4-4-xxxx-4-4-xxxx--------------
    A-2-2-xxxx-2-2-xxxx--------------
    E--------------------------------------

    Gitarr2
    e-------------------------------------------------------------------------------------------------------------
    B-------------------------------------------------------------------------------------------------------------
    G-------------------------------------------------------------------------------------------------------------
    D-------------------------------------------------------------------------------------------------------------
    A-9-9-9-9-9-9-9-7-7-7-7-7-9-9-9-2-2-2-2-2-2-2-2-2-2-12-12-12-12-12-7-7-7-7-7-7-9-9-9-9--
    E-------------------------------------------------------------------------------------------------------------
    Forts.
    e---------------------------------------------------------------------------------------------------------------
    B---------------------------------------------------------------------------------------------------------------
    G---------------------------------------------------------------------------------------------------------------
    D---------------------------------------------------------------------------------------------------------------
    A-2-2-2-2-2-2-2-2-2-2-9-9-9-9-9-9-9-7-7-7-7-7-7-9-9-5-5-5-5-5-5-12-12-12-12-12-7-7-7-7-7-
    E---------------------------------------------------------------------------------------------------------------
    Forts.
    e----------------------------------------
    B---------------------------------------
    G---------------------------------------
    D---------------------------------------
    A-7-7-9-9-2-2-2-2-2-2-2-2-2-------
    E----------------------------------------
    Jag har inte satt ut exakt antal ggr så spela på känsla..

    Refräng.

    Gitarr1
    e---------------------------------------------------------------------------------------------------------------
    B---------------------------------------------------------------------------------------------------------------
    G-7-7-7-7-7-7-7-9-9-9-9-9-9-9-9--9-11-11-11-11--9-11-11-11-11-7-7-7-7-7-6-6-6-6-6-6------
    D--------------------------------------------------------------------------------------------------------------
    A-5-5-5-5-5-5-5-7-7-7-7-7-7-7-7--7-9-9-9-9-9-9----7-9-9-9-9-9-9-5-5-5-5-5-4-4-4-4-4-4----
    E--------------------------------------------------------------------------------------------------------------
    Forts.
    e--------------------------------------------------------
    B--------------------------------------------------------
    G-4-4-xxxx-4-4-xxxx----4-4-xxxx-4-4-xxxx-----
    D-4-4-xxxx-4-4-xxxx----4-4-xxxx-4-4-xxxx-----
    A-2-2-xxxx-2-2-xxxx----2-2-xxxx-2-2-xxxx-----
    E--------------------------------------------------------
    Forts.
    e---------------------------------------------------------------------------------------------------------------
    B---------------------------------------------------------------------------------------------------------------
    G-7-7-7-7-7-7-7-9-9-9-9-9-9-9-9-9-11-11-11-11-11-11-11-7-7-7-7-7-6-6-6-6-6-6---------------
    D--------------------------------------------------------------------------------------------------------------
    A-5-5-5-5-5-5-5-7-7-7-7-7-7-7-7-7-9-9-9-9-9-9-9-9-9-9-9-5-5-5-5-5-4-4-4-4-4-4---------------
    E---------------------------------------------------------------------------------------------------------------
    Forts.
    e--------------------------------------------------------
    B--------------------------------------------------------
    G-4-4-xxxx-4-4-xxxx----4-4-xxxx-4-4-xxxx-----
    D-4-4-xxxx-4-4-xxxx----4-4-xxxx-4-4-xxxx-----
    A-2-2-xxxx-2-2-xxxx----2-2-xxxx-2-2-xxxx-----
    E--------------------------------------------------------

    Gitarr2
    e----------------------------------------------------------------------------------------------------------------
    B---------------------------------------------------------------------------------------------------------------
    G---------------------------------------------------------------------------------------------------------------
    D---------------------------------------------------------------------------------------------------------------
    A-9-9-9-9-9-9-9-12-12-12-12-12-2-2-2-2-2-2-2-2-9-9-9-9-9-9-9-12-12-12-12-12-2-2-2-2-2-2-
    E---------------------------------------------------------------------------------------------------------------
    x2

    Mellanspel
    e------------------------------------------------------------------
    B------------------------------------------------------------------
    G-14-14--14-12-11-9-11-7/9-11-7/9-11-9-7---------------
    D------------------------------------------------------------------
    A------------------------------------------------------------------
    E------------------------------------------------------------------
    forts.
    G:-14-14--14-12-11-9-11-7/9-11-9-7-9-11-9-7-------------




    vers2 samma som första




    refräng2 samma som första


    Mellanspel
    e------------------------------------------------------------------
    B------------------------------------------------------------------
    G-14-14--14-12-11-9-11-7/9-11-7/9-11-9-7----------------
    D------------------------------------------------------------------
    A------------------------------------------------------------------
    E------------------------------------------------------------------
    forts.
    G-14-14--14-12-11-9-11--11-9-7--7-6-4---------------------
    forts.
    G-14-14--14-12-11-9-11-7/9-11-7/9-11-9-7-----------------
    forts.
    G-14-14--14-12-11-14-16--7/9-11-9-7--9-11-9-7-----------

    refräng3
    Gitarr1
    e---------------------------------------------------------------------------------------------------------------
    B---------------------------------------------------------------------------------------------------------------
    G-7-7-7-7-7-7-7-9-9-9-9-9-9-9-9--9-11-11-11-11--9-11-11-11-11-7-7-7-7-7-6-6-6-6-6-6------
    D--------------------------------------------------------------------------------------------------------------
    A-5-5-5-5-5-5-5-7-7-7-7-7-7-7-7--7-9-9-9-9-9-9----7-9-9-9-9-9-9-5-5-5-5-5-4-4-4-4-4-4----
    E--------------------------------------------------------------------------------------------------------------
    Forts.
    e--------------------------------------------------------
    B--------------------------------------------------------
    G-4-4-xxxx-4-4-xxxx----4-4-xxxx-4-4-xxxx-----
    D-4-4-xxxx-4-4-xxxx----4-4-xxxx-4-4-xxxx-----
    A-2-2-xxxx-2-2-xxxx----2-2-xxxx-2-2-xxxx-----
    E--------------------------------------------------------
    Forts.
    e---------------------------------------------------------------------------------------------------------------
    B---------------------------------------------------------------------------------------------------------------
    G-7-7-7-7-7-7-7-9-9-9-9-9-9-9-9-9-11-11-11-11-9-9-9-9-9-9-7-7-7-7-7-6-6-6-6-6-6----------
    D--------------------------------------------------------------------------------------------------------------
    A-5-5-5-5-5-5-5-7-7-7-7-7-7-7-7-7-9-9-9-9-9-9-7-7-7-7-7-7-5-5-5-5-5-4-4-4-4-4-4-----------
    E---------------------------------------------------------------------------------------------------------------

    Gitarr2
    e----------------------------------------------------------------------------------------------------------------
    B---------------------------------------------------------------------------------------------------------------
    G---------------------------------------------------------------------------------------------------------------
    D---------------------------------------------------------------------------------------------------------------
    A-9-9-9-9-9-9-9-12-12-12-12-12-2-2-2-2-2-2-2-2-9-9-9-9-9-9-9-12-12-12-12-12-2-2-2-2-2-2-
    E---------------------------------------------------------------------------------------------------------------
    x2


    outro

    Gitarr1
    e----------------------------------------------------------------------------------------------
    B--------------------------------------------------------------------------------------------
    G-4-4-4-4-4-7-9-11-11-11-11-9-7---4-4-4-4-4-7-9-11-11-11-11-9-7--4----------
    D--------------------------------------------------------------------------------------------
    A---------------------------------------------------------------------------------------------
    E---------------------------------------------------------------------------------------------

    Gitarr2
    e-------------------------------------------------------------------------------------------------------
    B-------------------------------------------------------------------------------------------------------
    G-4-4-4-4-4-4-4-4-4-4-4-4-4-4-4-4-4-4-4-4-4-4-4-4-4-4-4-4-4-4-4-4-4-4-4-4-4-4--------
    D-------------------------------------------------------------------------------------------------------
    A-2-2-2-2-2-2-2-2-2-2-2-2-2-2-2-2-2-2-2-2-2-2-2-2-2-2-2-2-2-2-2-2-2-2-2-2-2-2-------
    E-------------------------------------------------------------------------------------------------------

  15. #45
    Erfaren medlem crappers avatar
    Reg.datum
    Jun 2004
    Ort
    Skövde., , .
    Inlägg
    4 058

    Standard

    Kent - istället för ljud

    intro
    e------------------------------------
    B-----------------------------------
    G-----------5--------------5-------
    D---5-------5------5------5-------
    A---5-------3------5------3-------
    E---3---------------3---------------med tremolo


    Vers
    Gitarr1
    e-------------------------------------------------------------------------------------------------
    B-------------------------------------------------------------------------------------------------
    G-----7-----7-9-----9-9--------12--12-11--11--11------7-----7----7----7----9---9---9-9----
    D--5-------------------------------------------------------------5----5----5----5---7---7---------
    A--------------------------------------------------------------------------------------------------
    E--------------------------------------------------------------------------------------------------
    Forts.
    e----------------------------------------------------------------------------------------
    B----------------------------------------------------------------------------------------
    G--12-12-12-12-14-14-14-14----------/11-11-11---------------------------------
    D----------------------------------------------------------------------------------------
    A----------------------------------------------------------------------------------------
    E----------------------------------------------------------------------------------------
    Forts.
    e-------------------------------------------------------------------------------------------------------
    B-------------------------------------------------------------------------------------------------------
    G-----7-7-7-7--7-9-9-9-9-----12-12-12-12-12-11-11-11--11----7---7---7---7---9---9---9-9-
    D--5---------------------------------------------------------------------5---5---5---5---7---7------
    A--------------------------------------------------------------------------------------------------------
    E--------------------------------------------------------------------------------------------------------
    Forts.
    e----------------------------------------------------------------------------------------
    B----------------------------------------5--7--8---------------------------------------
    G--12-12-12-12-14-14-14-14-------------------------------------------------------
    D----------------------------------------------------------------------------------------
    A----------------------------------------------------------------------------------------
    E----------------------------------------------------------------------------------------

    Gitarr2 spelas med delay o dist så att det typ ekar 3 ggr
    e----------------------------------------------------------------------------------------
    B----------------------------------------------------------------------------------------
    G-7h9p7-----7h9p7------------/11------7h9p7---------9p7------------------------
    D---------------------------------------------------------------------------------------
    A-----------------------------------------------------/7----------------5h7p5----------
    E--------------------------/8------------------------------------------------------------x2

    Refräng
    e----------------------------------------------------------------------------------------
    B----------------------------------------------------------------------------------------
    G-5-5-5-5-5-5-5-5-5-5-7-7-7-7-7-7-7-7-9-9-9-9-9-9-9-9-5-5-5-5-5-5-5-5---
    D-5-5-5-5-5-5-5-5-5-5-7-7-7-7-7-7-7-7-9-9-9-9-9-9-9-9-5-5-5-5-5-5-5-5----
    A-3-3-3-3-3-3-3-3-3-3-5-5-5-5-5-5-5-5-7-7-7-7-7-7-7-7-3-3-3-3-3-3-3-3---
    E----------------------------------------------------------------------------------------
    Forts.


    e------------------------------------------------------------------------------------------
    B---------------------------------------------------------------------------8----10-----
    G-5-5-5-5-5-5-5-5-5-5-7-7-7-7-7-7-7-7-9-9-9-9-9-9-9-9---7/9------9---------
    D-5-5-5-5-5-5-5-5-5-5-7-7-7-7-7-7-7-7-9-9-9-9-9-9-9-9------------------------
    A-3-3-3-3-3-3-3-3-3-3-5-5-5-5-5-5-5-5-7-7-7-7-7-7-7-7------------------------
    E------------------------------------------------------------------------------------------
    Forts.
    e----------------------------------------------------------------------------------------
    B----------------------------------------------------------------------------------------
    G-5-5-5-5-5-5-5-5-5-5-7-7-7-7-7-7-7-7-9-9-9-9-9-9-9-9-5-5-5-5-5-5-5-5---
    D-5-5-5-5-5-5-5-5-5-5-7-7-7-7-7-7-7-7-9-9-9-9-9-9-9-9-5-5-5-5-5-5-5-5----
    A-3-3-3-3-3-3-3-3-3-3-5-5-5-5-5-5-5-5-7-7-7-7-7-7-7-7-3-3-3-3-3-3-3-3---
    E----------------------------------------------------------------------------------------

    e----------------------------
    B----------------------------
    G--5-----7----9------------
    D--5-----7----9------------
    A--3-----5----7------------
    E----------------------------

    Vers2
    Gitarr1
    e-------------------------------------------------------------------------------------------------------
    B-------------------------------------------------------------------------------------------------------
    G-----7-7-7-7--7-9-9-9-9-----12-12-12-12-12-11-11-11--11----7---7---7---7---9---9---9-9-
    D--5---------------------------------------------------------------------5---5---5---5---7---7------
    A--------------------------------------------------------------------------------------------------------
    E--------------------------------------------------------------------------------------------------------
    Forts.
    e----------------------------------------------------------------------------------------
    B----------------------------------------5--7--8---------------------------------------
    G--12-12-12-12-14-14-14-14-------------------------------------------------------
    D----------------------------------------------------------------------------------------
    A----------------------------------------------------------------------------------------
    E----------------------------------------------------------------------------------------

    Gitarr2
    e----------------------------------------------------------------------------------------
    B----------------------------------------------------------------------------------------
    G---7h9p7-------9p7----------/11---------7h9p7----------------------------/12----
    D----------------------------------------------------------------------------------------
    A------------------------------------------------------------/7-------5h7p5--------------
    E--------------------------/8--------------------------------------------------------------


    Ref2
    e----------------------------------------------------------------------------------------
    B----------------------------------------------------------------------------------------
    G-5-5-5-5-5-5-5-5-5-5-7-7-7-7-7-7-7-7-9-9-9-9-9-9-9-9-5-5-5-5-5-5-5-5---
    D-5-5-5-5-5-5-5-5-5-5-7-7-7-7-7-7-7-7-9-9-9-9-9-9-9-9-5-5-5-5-5-5-5-5----
    A-3-3-3-3-3-3-3-3-3-3-5-5-5-5-5-5-5-5-7-7-7-7-7-7-7-7-3-3-3-3-3-3-3-3---
    E----------------------------------------------------------------------------------------
    Forts.


    e------------------------------------------------------------------------------------------
    B---------------------------------------------------------------------------8----10-----
    G-5-5-5-5-5-5-5-5-5-5-7-7-7-7-7-7-7-7-9-9-9-9-9-9-9-9---7/9------9---------
    D-5-5-5-5-5-5-5-5-5-5-7-7-7-7-7-7-7-7-9-9-9-9-9-9-9-9------------------------
    A-3-3-3-3-3-3-3-3-3-3-5-5-5-5-5-5-5-5-7-7-7-7-7-7-7-7------------------------
    E------------------------------------------------------------------------------------------
    Forts.
    e----------------------------------------------------------------------------------------
    B----------------------------------------------------------------------------------------
    G-5-5-5-5-5-5-5-5-5-5-7-7-7-7-7-7-7-7-9-9-9-9-9-9-9-9-5-5-5-5-5-5-5-5---
    D-5-5-5-5-5-5-5-5-5-5-7-7-7-7-7-7-7-7-9-9-9-9-9-9-9-9-5-5-5-5-5-5-5-5----
    A-3-3-3-3-3-3-3-3-3-3-5-5-5-5-5-5-5-5-7-7-7-7-7-7-7-7-3-3-3-3-3-3-3-3---
    E----------------------------------------------------------------------------------------

    e----------------------------
    B----------------------------
    G--5-----7----9------------
    D--5-----7----9------------
    A--3-----5----7------------
    E----------------------------alltx2


    Outro
    e----------------------------------------------------------------------------------------
    B----------------------------------------------------------------------------------------
    G-5-5-5-5-5-5-5-5-5-5-7-7-7-7-7-7-7-7-9-9-9-9-9-9-9-9-5-5-5-5-5-5-5-5---
    D-5-5-5-5-5-5-5-5-5-5-7-7-7-7-7-7-7-7-9-9-9-9-9-9-9-9-5-5-5-5-5-5-5-5----
    A-3-3-3-3-3-3-3-3-3-3-5-5-5-5-5-5-5-5-7-7-7-7-7-7-7-7-3-3-3-3-3-3-3-3---
    E----------------------------------------------------------------------------------------
    Forts.


    e------------------------------------------------------------------------------------------
    B---------------------------------------------------------------------------8----10-----
    G-5-5-5-5-5-5-5-5-5-5-7-7-7-7-7-7-7-7-9-9-9-9-9-9-9-9---7/9------9---------
    D-5-5-5-5-5-5-5-5-5-5-7-7-7-7-7-7-7-7-9-9-9-9-9-9-9-9------------------------
    A-3-3-3-3-3-3-3-3-3-3-5-5-5-5-5-5-5-5-7-7-7-7-7-7-7-7------------------------
    E------------------------------------------------------------------------------------------
    Forts.
    e----------------------------------------------------------------------------------------
    B----------------------------------------------------------------------------------------
    G-5-5-5-5-5-5-5-5-5-5-7-7-7-7-7-7-7-7-9-9-9-9-9-9-9-9-5-5-5-5-5-5-5-5---
    D-5-5-5-5-5-5-5-5-5-5-7-7-7-7-7-7-7-7-9-9-9-9-9-9-9-9-5-5-5-5-5-5-5-5----
    A-3-3-3-3-3-3-3-3-3-3-5-5-5-5-5-5-5-5-7-7-7-7-7-7-7-7-3-3-3-3-3-3-3-3---
    E----------------------------------------------------------------------------------------

    e----------------------------
    B----------------------------
    G--5-----7----9------------
    D--5-----7----9------------
    A--3-----5----7------------
    E----------------------------alltx2








    blåjeans är nu uppdaterad.
    Senast redigerat av crapper den 2007-08-01 klockan 22:52.

Sidan 3 av 12 FörstaFörsta 123456789101112 SistaSista

Behörigheter för att posta

  • Du får inte posta nya ämnen
  • Du får inte posta svar
  • Du får inte posta bifogade filer
  • Du får inte redigera dina inlägg
  •